  0
SECTION
  2
HEADER
  9
$ACADVER
  1
AC1015
  9
$ACADMAINTVER
 70
     6
  9
$DWGCODEPAGE
  3
ANSI_1254
  9
$INSBASE
 10
0.0
 20
0.0
 30
0.0
  9
$EXTMIN
 10
0.0
 20
0.0
 30
0.0
  9
$EXTMAX
 10
279.4
 20
215.9
 30
0.0
  9
$LIMMIN
 10
0.0
 20
0.0
  9
$LIMMAX
 10
279.4
 20
215.9
  9
$ORTHOMODE
 70
     0
  9
$REGENMODE
 70
     1
  9
$FILLMODE
 70
     1
  9
$QTEXTMODE
 70
     0
  9
$MIRRTEXT
 70
     1
  9
$LTSCALE
 40
1.0
  9
$ATTMODE
 70
     1
  9
$TEXTSIZE
 40
3.5
  9
$TRACEWID
 40
1.0
  9
$TEXTSTYLE
  7
Standard
  9
$CLAYER
  8
0
  9
$CELTYPE
  6
ByLayer
  9
$CECOLOR
 62
   256
  9
$CELTSCALE
 40
1.0
  9
$DISPSILH
 70
     0
  9
$DIMSCALE
 40
1.0
  9
$DIMASZ
 40
3.5
  9
$DIMEXO
 40
1.0
  9
$DIMDLI
 40
3.75
  9
$DIMRND
 40
0.0
  9
$DIMDLE
 40
0.0
  9
$DIMEXE
 40
1.0
  9
$DIMTP
 40
0.0
  9
$DIMTM
 40
0.0
  9
$DIMTXT
 40
3.5
  9
$DIMCEN
 40
2.5
  9
$DIMTSZ
 40
0.0
  9
$DIMTOL
 70
     0
  9
$DIMLIM
 70
     0
  9
$DIMTIH
 70
     1
  9
$DIMTOH
 70
     1
  9
$DIMSE1
 70
     0
  9
$DIMSE2
 70
     0
  9
$DIMTAD
 70
     1
  9
$DIMZIN
 70
     0
  9
$DIMBLK
  1

  9
$DIMASO
 70
     1
  9
$DIMSHO
 70
     1
  9
$DIMPOST
  1

  9
$DIMAPOST
  1

  9
$DIMALT
 70
     0
  9
$DIMALTD
 70
     3
  9
$DIMALTF
 40
0.0393700787
  9
$DIMLFAC
 40
1.0
  9
$DIMTOFL
 70
     1
  9
$DIMTVP
 40
0.0
  9
$DIMTIX
 70
     0
  9
$DIMSOXD
 70
     0
  9
$DIMSAH
 70
     0
  9
$DIMBLK1
  1

  9
$DIMBLK2
  1

  9
$DIMSTYLE
  2
ISO-25
  9
$DIMCLRD
 70
     0
  9
$DIMCLRE
 70
     0
  9
$DIMCLRT
 70
     0
  9
$DIMTFAC
 40
1.0
  9
$DIMGAP
 40
1.524
  9
$DIMJUST
 70
     0
  9
$DIMSD1
 70
     0
  9
$DIMSD2
 70
     0
  9
$DIMTOLJ
 70
     0
  9
$DIMTZIN
 70
     0
  9
$DIMALTZ
 70
     0
  9
$DIMALTTZ
 70
     0
  9
$DIMUPT
 70
     0
  9
$DIMDEC
 70
     2
  9
$DIMTDEC
 70
     2
  9
$DIMALTU
 70
     2
  9
$DIMALTTD
 70
     3
  9
$DIMTXSTY
  7
Standard
  9
$DIMAUNIT
 70
     0
  9
$DIMADEC
 70
     2
  9
$DIMALTRND
 40
0.0
  9
$DIMAZIN
 70
     0
  9
$DIMDSEP
 70
    44
  9
$DIMATFIT
 70
     3
  9
$DIMFRAC
 70
     0
  9
$DIMLDRBLK
  1

  9
$DIMLUNIT
 70
     2
  9
$DIMLWD
 70
    -2
  9
$DIMLWE
 70
    -2
  9
$DIMTMOVE
 70
     0
  9
$LUNITS
 70
     2
  9
$LUPREC
 70
     2
  9
$SKETCHINC
 40
1.0
  9
$FILLETRAD
 40
10.0
  9
$AUNITS
 70
     0
  9
$AUPREC
 70
     2
  9
$MENU
  1
.
  9
$ELEVATION
 40
0.0
  9
$PELEVATION
 40
0.0
  9
$THICKNESS
 40
0.0
  9
$LIMCHECK
 70
     0
  9
$CHAMFERA
 40
0.0
  9
$CHAMFERB
 40
0.0
  9
$CHAMFERC
 40
0.0
  9
$CHAMFERD
 40
0.0
  9
$SKPOLY
 70
     0
  9
$TDCREATE
 40
2458985.668815127
  9
$TDUCREATE
 40
2458985.543815127
  9
$TDUPDATE
 40
2458985.668815382
  9
$TDUUPDATE
 40
2458985.543815382
  9
$TDINDWG
 40
0.0000000116
  9
$TDUSRTIMER
 40
0.0000000116
  9
$USRTIMER
 70
     1
  9
$ANGBASE
 50
0.0
  9
$ANGDIR
 70
     0
  9
$PDMODE
 70
     0
  9
$PDSIZE
 40
-1.0
  9
$PLINEWID
 40
0.0
  9
$SPLFRAME
 70
     0
  9
$SPLINETYPE
 70
     6
  9
$SPLINESEGS
 70
     8
  9
$HANDSEED
  5
D2
  9
$SURFTAB1
 70
     6
  9
$SURFTAB2
 70
     6
  9
$SURFTYPE
 70
     6
  9
$SURFU
 70
     6
  9
$SURFV
 70
     6
  9
$UCSBASE
  2

  9
$UCSNAME
  2

  9
$UCSORG
 10
0.0
 20
0.0
 30
0.0
  9
$UCSXDIR
 10
1.0
 20
0.0
 30
0.0
  9
$UCSYDIR
 10
0.0
 20
1.0
 30
0.0
  9
$UCSORTHOREF
  2

  9
$UCSORTHOVIEW
 70
     0
  9
$UCSORGTOP
 10
0.0
 20
0.0
 30
0.0
  9
$UCSORGBOTTOM
 10
0.0
 20
0.0
 30
0.0
  9
$UCSORGLEFT
 10
0.0
 20
0.0
 30
0.0
  9
$UCSORGRIGHT
 10
0.0
 20
0.0
 30
0.0
  9
$UCSORGFRONT
 10
0.0
 20
0.0
 30
0.0
  9
$UCSORGBACK
 10
0.0
 20
0.0
 30
0.0
  9
$PUCSBASE
  2

  9
$PUCSNAME
  2

  9
$PUCSORG
 10
0.0
 20
0.0
 30
0.0
  9
$PUCSXDIR
 10
1.0
 20
0.0
 30
0.0
  9
$PUCSYDIR
 10
0.0
 20
1.0
 30
0.0
  9
$PUCSORTHOREF
  2

  9
$PUCSORTHOVIEW
 70
     0
  9
$PUCSORGTOP
 10
0.0
 20
0.0
 30
0.0
  9
$PUCSORGBOTTOM
 10
0.0
 20
0.0
 30
0.0
  9
$PUCSORGLEFT
 10
0.0
 20
0.0
 30
0.0
  9
$PUCSORGRIGHT
 10
0.0
 20
0.0
 30
0.0
  9
$PUCSORGFRONT
 10
0.0
 20
0.0
 30
0.0
  9
$PUCSORGBACK
 10
0.0
 20
0.0
 30
0.0
  9
$USERI1
 70
     0
  9
$USERI2
 70
     0
  9
$USERI3
 70
     0
  9
$USERI4
 70
     0
  9
$USERI5
 70
     0
  9
$USERR1
 40
0.0
  9
$USERR2
 40
0.0
  9
$USERR3
 40
0.0
  9
$USERR4
 40
0.0
  9
$USERR5
 40
0.0
  9
$WORLDVIEW
 70
     1
  9
$SHADEDGE
 70
     3
  9
$SHADEDIF
 70
    70
  9
$TILEMODE
 70
     1
  9
$MAXACTVP
 70
    64
  9
$PINSBASE
 10
0.0
 20
0.0
 30
0.0
  9
$PLIMCHECK
 70
     0
  9
$PEXTMIN
 10
1.0000000000E+20
 20
1.0000000000E+20
 30
1.0000000000E+20
  9
$PEXTMAX
 10
-1.0000000000E+20
 20
-1.0000000000E+20
 30
-1.0000000000E+20
  9
$PLIMMIN
 10
0.0
 20
0.0
  9
$PLIMMAX
 10
420.0
 20
297.0
  9
$UNITMODE
 70
     0
  9
$VISRETAIN
 70
     1
  9
$PLINEGEN
 70
     0
  9
$PSLTSCALE
 70
     1
  9
$TREEDEPTH
 70
  3020
  9
$CMLSTYLE
  2
Standard
  9
$CMLJUST
 70
     0
  9
$CMLSCALE
 40
20.0
  9
$PROXYGRAPHICS
 70
     1
  9
$MEASUREMENT
 70
     1
  9
$CELWEIGHT
370
    -1
  9
$ENDCAPS
280
     0
  9
$JOINSTYLE
280
     0
  9
$LWDISPLAY
290
     1
  9
$INSUNITS
 70
     4
  9
$HYPERLINKBASE
  1

  9
$STYLESHEET
  1

  9
$XEDIT
290
     1
  9
$CEPSNTYPE
380
     0
  9
$PSTYLEMODE
290
     1
  9
$FINGERPRINTGUID
  2
{ff49a69d-d313-4c62-b6b9-de5a1a25992e}
  9
$VERSIONGUID
  2
{FAEB1C32-E019-11D5-929B-00C0DF256EC4}
  9
$EXTNAMES
290
     1
  9
$PSVPSCALE
 40
0.0
  9
$OLESTARTUP
290
     0
  0
ENDSEC
  0
SECTION
  2
CLASSES
  0
CLASS
  1
ACDBDICTIONARYWDFLT
  2
AcDbDictionaryWithDefault
  3
ObjectDBX Classes
 90
        0
280
     0
281
     0
  0
CLASS
  1
VISUALSTYLE
  2
AcDbVisualStyle
  3
ObjectDBX Classes
 90
     4095
280
     0
281
     0
  0
CLASS
  1
MATERIAL
  2
AcDbMaterial
  3
ObjectDBX Classes
 90
     1153
280
     0
281
     0
  0
CLASS
  1
SCALE
  2
AcDbScale
  3
ObjectDBX Classes
 90
     1153
280
     0
281
     0
  0
CLASS
  1
TABLESTYLE
  2
AcDbTableStyle
  3
ObjectDBX Classes
 90
     4095
280
     0
281
     0
  0
CLASS
  1
MLEADERSTYLE
  2
AcDbMLeaderStyle
  3
ACDB_MLEADERSTYLE_CLASS
 90
     4095
280
     0
281
     0
  0
CLASS
  1
SUN
  2
AcDbSun
  3
SCENEOE
 90
     1153
280
     0
281
     0
  0
CLASS
  1
ACDBPLACEHOLDER
  2
AcDbPlaceHolder
  3
ObjectDBX Classes
 90
        0
280
     0
281
     0
  0
CLASS
  1
LAYOUT
  2
AcDbLayout
  3
ObjectDBX Classes
 90
        0
280
     0
281
     0
  0
ENDSEC
  0
SECTION
  2
TABLES
  0
TABLE
  2
VPORT
  5
8
330
0
100
AcDbSymbolTable
 70
     1
  0
VPORT
  5
29
330
8
100
AcDbSymbolTableRecord
100
AcDbViewportTableRecord
  2
*Active
 70
     0
 10
0.0
 20
0.0
 11
1.0
 21
1.0
 12
139.7
 22
107.95
 13
0.0
 23
0.0
 14
10.0
 24
10.0
 15
10.0
 25
10.0
 16
0.0
 26
0.0
 36
1.0
 17
0.0
 27
0.0
 37
0.0
 40
215.9
 41
1.2941176471
 42
50.0
 43
0.0
 44
0.0
 50
0.0
 51
0.0
 71
     0
 72
  2000
 73
     1
 74
     3
 75
     0
 76
     0
 77
     0
 78
     0
281
     0
 65
     1
110
0.0
120
0.0
130
0.0
111
1.0
121
0.0
131
0.0
112
0.0
122
1.0
132
0.0
 79
     0
146
0.0
  0
ENDTAB
  0
TABLE
  2
LTYPE
  5
5
330
0
100
AcDbSymbolTable
 70
     6
  0
LTYPE
  5
14
330
5
100
AcDbSymbolTableRecord
100
AcDbLinetypeTableRecord
  2
ByBlock
 70
     0
  3

 72
    65
 73
     0
 40
0.0
  0
LTYPE
  5
15
330
5
100
AcDbSymbolTableRecord
100
AcDbLinetypeTableRecord
  2
ByLayer
 70
     0
  3

 72
    65
 73
     0
 40
0.0
  0
LTYPE
  5
16
330
5
100
AcDbSymbolTableRecord
100
AcDbLinetypeTableRecord
  2
Continuous
 70
     0
  3
Solid line
 72
    65
 73
     0
 40
0.0
  0
LTYPE
  5
6E
330
5
100
AcDbSymbolTableRecord
100
AcDbLinetypeTableRecord
  2
HIDDEN
 70
     0
  3
Hidden __ __ __ __ __ __ __ __ __ __ __ __ __ __
 72
    65
 73
     2
 40
1.905
 49
1.27
 74
     0
 49
-0.635
 74
     0
  0
LTYPE
  5
6F
330
5
100
AcDbSymbolTableRecord
100
AcDbLinetypeTableRecord
  2
PHANTOM
 70
     0
  3
Phantom ______  __  __  ______  __  __  ______
 72
    65
 73
     6
 40
12.7
 49
6.35
 74
     0
 49
-1.27
 74
     0
 49
1.27
 74
     0
 49
-1.27
 74
     0
 49
1.27
 74
     0
 49
-1.27
 74
     0
  0
LTYPE
  5
70
330
5
100
AcDbSymbolTableRecord
100
AcDbLinetypeTableRecord
  2
CENTER
 70
     0
  3
Center ____ _ ____ _ ____ _ ____ _ ____ _ ____
 72
    65
 73
     4
 40
10.16
 49
6.35
 74
     0
 49
-1.27
 74
     0
 49
1.27
 74
     0
 49
-1.27
 74
     0
  0
LTYPE
  5
71
330
5
100
AcDbSymbolTableRecord
100
AcDbLinetypeTableRecord
  2
CENTERX2
 70
     0
  3
Center (2x) ________  __  ________  __  _____
 72
    65
 73
     4
 40
20.32
 49
12.7
 74
     0
 49
-2.54
 74
     0
 49
2.54
 74
     0
 49
-2.54
 74
     0
  0
LTYPE
  5
72
330
5
100
AcDbSymbolTableRecord
100
AcDbLinetypeTableRecord
  2
DOT2
 70
     0
  3
Dot (.5x) ........................................
 72
    65
 73
     2
 40
0.635
 49
0.0
 74
     0
 49
-0.635
 74
     0
  0
ENDTAB
  0
TABLE
  2
LAYER
  5
2
330
0
100
AcDbSymbolTable
 70
    17
  0
LAYER
  5
10
330
2
100
AcDbSymbolTableRecord
100
AcDbLayerTableRecord
  2
0
 70
     0
 62
     7
  6
Continuous
370
    -3
390
F
  0
LAYER
  5
73
330
2
100
AcDbSymbolTableRecord
100
AcDbLayerTableRecord
  2
FORMAT
 70
     0
 62
     7
  6
Continuous
370
    -3
390
F
  0
LAYER
  5
74
330
2
100
AcDbSymbolTableRecord
100
AcDbLayerTableRecord
  2
YARDIMCI_GEOMETRI
 70
     0
 62
    -6
  6
Continuous
290
     0
370
    -3
390
F
  0
LAYER
  5
75
330
2
100
AcDbSymbolTableRecord
100
AcDbLayerTableRecord
  2
SAYFA_CERCEVESI
 70
     0
 62
     7
  6
Continuous
370
    25
390
F
  0
LAYER
  5
76
330
2
100
AcDbSymbolTableRecord
100
AcDbLayerTableRecord
  2
ANTET
 70
     0
 62
     7
  6
Continuous
370
    -3
390
F
  0
LAYER
  5
77
330
2
100
AcDbSymbolTableRecord
100
AcDbLayerTableRecord
  2
OLCU
 70
     0
 62
   150
  6
Continuous
370
    -3
390
F
  0
LAYER
  5
78
330
2
100
AcDbSymbolTableRecord
100
AcDbLayerTableRecord
  2
METIN
 70
     0
 62
    96
  6
Continuous
370
    -3
390
F
  0
LAYER
  5
79
330
2
100
AcDbSymbolTableRecord
100
AcDbLayerTableRecord
  2
BALON
 70
     0
 62
     5
  6
Continuous
370
    -3
390
F
  0
LAYER
  5
7A
330
2
100
AcDbSymbolTableRecord
100
AcDbLayerTableRecord
  2
VURGU
 70
     0
 62
     7
  6
Continuous
370
    -3
390
F
  0
LAYER
  5
7B
330
2
100
AcDbSymbolTableRecord
100
AcDbLayerTableRecord
  2
SILIK
 70
     0
 62
     7
  6
Continuous
370
    -3
390
F
  0
LAYER
  5
7C
330
2
100
AcDbSymbolTableRecord
100
AcDbLayerTableRecord
  2
MODEL
 70
     0
 62
     7
  6
Continuous
370
    -3
390
F
  0
LAYER
  5
7D
330
2
100
AcDbSymbolTableRecord
100
AcDbLayerTableRecord
  2
DETAYLANDıRMA
 70
     0
 62
   190
  6
Continuous
370
    -3
390
F
  0
LAYER
  5
7E
330
2
100
AcDbSymbolTableRecord
100
AcDbLayerTableRecord
  2
TOLERANS
 70
     0
 62
   230
  6
Continuous
370
    -3
390
F
  0
LAYER
  5
7F
330
2
100
AcDbSymbolTableRecord
100
AcDbLayerTableRecord
  2
MERKEZ_CIZGILERI
 70
     0
 62
    30
  6
Continuous
370
    -3
390
F
  0
LAYER
  5
80
330
2
100
AcDbSymbolTableRecord
100
AcDbLayerTableRecord
  2
KESIT-DETAY_CIZGILERI
 70
     0
 62
     7
  6
Continuous
370
    -3
390
F
  0
LAYER
  5
81
330
2
100
AcDbSymbolTableRecord
100
AcDbLayerTableRecord
  2
\U+041E\U+0421\U+0415\U+0412\U+042B\U+0415
 70
     0
 62
     7
  6
Continuous
370
    -3
390
F
  0
LAYER
  5
82
330
2
100
AcDbSymbolTableRecord
100
AcDbLayerTableRecord
  2
\U+0412\U+041E\U+0414\U+042F\U+041D\U+042B\U+0415_\U+0417\U+041D\U+0410\U+041A\U+0418
 70
     0
 62
    11
  6
Continuous
370
    -3
390
F
  0
ENDTAB
  0
TABLE
  2
STYLE
  5
3
330
0
100
AcDbSymbolTable
 70
     1
  0
STYLE
  5
11
330
3
100
AcDbSymbolTableRecord
100
AcDbTextStyleTableRecord
  2
Standard
 70
     0
 40
0.0
 41
1.0
 50
0.0
 71
     0
 42
3.5
  3
txt
  4

  0
ENDTAB
  0
TABLE
  2
VIEW
  5
6
330
0
100
AcDbSymbolTable
 70
     0
  0
ENDTAB
  0
TABLE
  2
UCS
  5
7
330
0
100
AcDbSymbolTable
 70
     0
  0
ENDTAB
  0
TABLE
  2
APPID
  5
9
330
0
100
AcDbSymbolTable
 70
     1
  0
APPID
  5
12
330
9
100
AcDbSymbolTableRecord
100
AcDbRegAppTableRecord
  2
ACAD
 70
     0
  0
ENDTAB
  0
TABLE
  2
DIMSTYLE
  5
A
330
0
100
AcDbSymbolTable
 70
     1
100
AcDbDimStyleTable
  0
DIMSTYLE
105
27
330
A
100
AcDbSymbolTableRecord
100
AcDbDimStyleTableRecord
  2
ISO-25
 70
     0
 41
2.5
 42
0.625
 43
3.75
 44
1.25
 73
     0
 74
     0
 77
     1
 78
     8
140
2.5
141
2.5
143
0.0393700787
147
0.625
171
     3
172
     1
178
     0
271
     2
272
     2
274
     3
278
    44
283
     0
284
     8
340
11
  0
ENDTAB
  0
TABLE
  2
BLOCK_RECORD
  5
1
330
0
100
AcDbSymbolTable
 70
     3
  0
BLOCK_RECORD
  5
1F
330
1
100
AcDbSymbolTableRecord
100
AcDbBlockTableRecord
  2
*Model_Space
340
22
  0
BLOCK_RECORD
  5
1B
330
1
100
AcDbSymbolTableRecord
100
AcDbBlockTableRecord
  2
*Paper_Space
340
1E
  0
BLOCK_RECORD
  5
23
330
1
100
AcDbSymbolTableRecord
100
AcDbBlockTableRecord
  2
*Paper_Space0
340
26
  0
BLOCK_RECORD
  5
94
330
1
100
AcDbSymbolTableRecord
100
AcDbBlockTableRecord
  2
SW_CENTERMARKSYMBOL_0
340
0
102
{BLKREFS
331
9F
102
}
  0
BLOCK_RECORD
  5
A5
330
1
100
AcDbSymbolTableRecord
100
AcDbBlockTableRecord
  2
SW_CENTERMARKSYMBOL_1
340
0
102
{BLKREFS
331
B0
102
}
  0
ENDTAB
  0
ENDSEC
  0
SECTION
  2
BLOCKS
  0
BLOCK
  5
20
330
1F
100
AcDbEntity
  8
0
100
AcDbBlockBegin
  2
*Model_Space
 70
     0
 10
0.0
 20
0.0
 30
0.0
  3
*Model_Space
  1

  0
ENDBLK
  5
21
330
1F
100
AcDbEntity
  8
0
100
AcDbBlockEnd
  0
BLOCK
  5
1C
330
1B
100
AcDbEntity
 67
     1
  8
0
100
AcDbBlockBegin
  2
*Paper_Space
 70
     0
 10
0.0
 20
0.0
 30
0.0
  3
*Paper_Space
  1

  0
ENDBLK
  5
1D
330
1B
100
AcDbEntity
 67
     1
  8
0
100
AcDbBlockEnd
  0
BLOCK
  5
24
330
23
100
AcDbEntity
  8
0
100
AcDbBlockBegin
  2
*Paper_Space0
 70
     0
 10
0.0
 20
0.0
 30
0.0
  3
*Paper_Space0
  1

  0
ENDBLK
  5
25
330
23
100
AcDbEntity
  8
0
100
AcDbBlockEnd
  0
BLOCK
  5
95
330
94
100
AcDbEntity
  8
0
100
AcDbBlockBegin
  2
SW_CENTERMARKSYMBOL_0
 70
     0
 10
0.0
 20
0.0
 30
0.0
  3
SW_CENTERMARKSYMBOL_0
  1

  0
LINE
  5
97
330
94
100
AcDbEntity
  8
FORMAT
 62
     0
100
AcDbLine
 10
0.0
 20
0.0
 30
0.0
 11
0.0
 21
2.5
 31
0.0
  0
LINE
  5
98
330
94
100
AcDbEntity
  8
FORMAT
 62
     0
100
AcDbLine
 10
0.0
 20
0.0
 30
0.0
 11
-2.5
 21
0.0
 31
0.0
  0
LINE
  5
99
330
94
100
AcDbEntity
  8
FORMAT
 62
     0
100
AcDbLine
 10
0.0
 20
0.0
 30
0.0
 11
0.0
 21
-2.5
 31
0.0
  0
LINE
  5
9A
330
94
100
AcDbEntity
  8
FORMAT
 62
     0
100
AcDbLine
 10
0.0
 20
0.0
 30
0.0
 11
2.5
 21
0.0
 31
0.0
  0
LINE
  5
9B
330
94
100
AcDbEntity
  8
FORMAT
 62
     0
100
AcDbLine
 10
0.0
 20
5.0
 30
0.0
 11
0.0
 21
65.0
 31
0.0
  0
LINE
  5
9C
330
94
100
AcDbEntity
  8
FORMAT
 62
     0
100
AcDbLine
 10
-5.0
 20
0.0
 30
0.0
 11
-65.0
 21
0.0
 31
0.0
  0
LINE
  5
9D
330
94
100
AcDbEntity
  8
FORMAT
 62
     0
100
AcDbLine
 10
0.0
 20
-5.0
 30
0.0
 11
0.0
 21
-65.0
 31
0.0
  0
LINE
  5
9E
330
94
100
AcDbEntity
  8
FORMAT
 62
     0
100
AcDbLine
 10
5.0
 20
0.0
 30
0.0
 11
65.0
 21
0.0
 31
0.0
  0
ENDBLK
  5
96
330
94
100
AcDbEntity
  8
0
100
AcDbBlockEnd
  0
BLOCK
  5
A6
330
A5
100
AcDbEntity
  8
0
100
AcDbBlockBegin
  2
SW_CENTERMARKSYMBOL_1
 70
     0
 10
0.0
 20
0.0
 30
0.0
  3
SW_CENTERMARKSYMBOL_1
  1

  0
LINE
  5
A8
330
A5
100
AcDbEntity
  8
FORMAT
 62
     0
100
AcDbLine
 10
0.0
 20
0.0
 30
0.0
 11
0.0
 21
2.5
 31
0.0
  0
LINE
  5
A9
330
A5
100
AcDbEntity
  8
FORMAT
 62
     0
100
AcDbLine
 10
0.0
 20
0.0
 30
0.0
 11
-2.5
 21
0.0
 31
0.0
  0
LINE
  5
AA
330
A5
100
AcDbEntity
  8
FORMAT
 62
     0
100
AcDbLine
 10
0.0
 20
0.0
 30
0.0
 11
0.0
 21
-2.5
 31
0.0
  0
LINE
  5
AB
330
A5
100
AcDbEntity
  8
FORMAT
 62
     0
100
AcDbLine
 10
0.0
 20
0.0
 30
0.0
 11
2.5
 21
0.0
 31
0.0
  0
LINE
  5
AC
330
A5
100
AcDbEntity
  8
FORMAT
 62
     0
100
AcDbLine
 10
0.0
 20
5.0
 30
0.0
 11
0.0
 21
65.0
 31
0.0
  0
LINE
  5
AD
330
A5
100
AcDbEntity
  8
FORMAT
 62
     0
100
AcDbLine
 10
-5.0
 20
0.0
 30
0.0
 11
-65.0
 21
0.0
 31
0.0
  0
LINE
  5
AE
330
A5
100
AcDbEntity
  8
FORMAT
 62
     0
100
AcDbLine
 10
0.0
 20
-5.0
 30
0.0
 11
0.0
 21
-65.0
 31
0.0
  0
LINE
  5
AF
330
A5
100
AcDbEntity
  8
FORMAT
 62
     0
100
AcDbLine
 10
5.0
 20
0.0
 30
0.0
 11
65.0
 21
0.0
 31
0.0
  0
ENDBLK
  5
A7
330
A5
100
AcDbEntity
  8
0
100
AcDbBlockEnd
  0
ENDSEC
  0
SECTION
  2
ENTITIES
  0
LINE
  5
83
330
1F
100
AcDbEntity
  8
0
  6
Continuous
 62
     7
370
    25
100
AcDbLine
 10
74.8986173278
 20
223.9980718919
 30
0.0
 11
74.8986173278
 21
28.1295052596
 31
0.0
  0
LINE
  5
84
330
1F
100
AcDbEntity
  8
0
  6
Continuous
 62
     7
370
    25
100
AcDbLine
 10
199.8986173278
 20
28.1295052596
 30
0.0
 11
199.8986173278
 21
223.9980718919
 31
0.0
  0
LINE
  5
85
330
1F
100
AcDbEntity
  8
0
  6
Continuous
 62
     7
370
    25
100
AcDbLine
 10
199.8986173278
 20
223.9980718919
 30
0.0
 11
199.8986173278
 21
305.129500372
 31
0.0
  0
LINE
  5
86
330
1F
100
AcDbEntity
  8
0
  6
Continuous
 62
     7
370
    25
100
AcDbLine
 10
199.8986173278
 20
-106.8705001048
 30
0.0
 11
199.8986173278
 21
28.1295052596
 31
0.0
  0
LINE
  5
87
330
1F
100
AcDbEntity
  8
0
  6
Continuous
 62
     7
370
    25
100
AcDbLine
 10
74.8986173278
 20
28.1295052596
 30
0.0
 11
74.8986173278
 21
-106.8705001048
 31
0.0
  0
LINE
  5
88
330
1F
100
AcDbEntity
  8
0
  6
Continuous
 62
     7
370
    25
100
AcDbLine
 10
74.8986173278
 20
305.129500372
 30
0.0
 11
74.8986173278
 21
223.9980718919
 31
0.0
  0
LWPOLYLINE
  5
89
330
1F
100
AcDbEntity
  8
0
  6
Continuous
 62
     7
370
    25
100
AcDbPolyline
 90
       79
 70
   128
 43
0.0
 10
137.3986173278
 20
262.9596612283
 10
132.964909528
 20
262.8333291837
 10
128.5599553814
 20
262.4551079103
 10
124.2123246049
 20
261.8275008031
 10
119.9502106612
 20
260.954560978
 10
115.8012579983
 20
259.841921074
 10
111.7923706626
 20
258.4968528577
 10
107.9495511806
 20
256.9280288049
 10
104.2977180188
 20
255.1456413098
 10
100.8605602985
 20
253.1612536737
 10
97.6603608435
 20
250.9877106973
 10
94.7178844219
 20
248.6391386815
 10
92.0522045201
 20
246.1307666131
 10
89.6806176608
 20
243.4788665601
 10
87.6184981173
 20
240.7006046601
 10
85.8792234069
 20
237.8140411206
 10
84.4740699833
 20
234.8378619977
 10
83.412153632
 20
231.7914089986
 10
82.7003586894
 20
228.6943814584
 10
82.3433045154
 20
225.5668959447
 10
82.3433045154
 20
222.4292478391
 10
82.7003586894
 20
219.3017921277
 10
83.412153632
 20
216.2047645875
 10
84.4740699833
 20
213.1582817861
 10
85.8792234069
 20
210.1821026631
 10
87.6184981173
 20
207.2955391236
 10
89.6806176608
 20
204.5172772237
 10
92.0522045201
 20
201.8653771707
 10
94.7178844219
 20
199.3570051023
 10
97.6603608435
 20
197.0084330865
 10
100.8605602985
 20
194.8349199124
 10
104.2977180188
 20
192.8505322763
 10
107.9495511806
 20
191.0681447812
 10
111.7923706626
 20
189.4993207284
 10
115.8012579983
 20
188.1542227098
 10
119.9502106612
 20
187.0415828057
 10
124.2123246049
 20
186.1686429807
 10
128.5599553814
 20
185.5410358735
 10
132.964909528
 20
185.1628444024
 10
137.3986173278
 20
185.0364825555
 10
141.8323251275
 20
185.1628444024
 10
146.2372792741
 20
185.5410358735
 10
150.5849100506
 20
186.1686429807
 10
154.8470239943
 20
187.0415828057
 10
158.9959766572
 20
188.1542227098
 10
163.0048639929
 20
189.4993207284
 10
166.847683475
 20
191.0681447812
 10
170.4995166367
 20
192.8505322763
 10
173.936674357
 20
194.8349199124
 10
177.136873812
 20
197.0084330865
 10
180.0793502336
 20
199.3570051023
 10
182.7450301355
 20
201.8653771707
 10
185.1166169947
 20
204.5172772237
 10
187.1787365382
 20
207.2955391236
 10
188.9180112487
 20
210.1821026631
 10
190.3231646722
 20
213.1582817861
 10
191.3850810235
 20
216.2047645875
 10
192.0968759661
 20
219.3017921277
 10
192.4539301401
 20
222.4292478391
 10
192.4539301401
 20
225.5668959447
 10
192.0968759661
 20
228.6943814584
 10
191.3850810235
 20
231.7914089986
 10
190.3231646722
 20
234.8378619977
 10
188.9180112487
 20
237.8140411206
 10
187.1787365382
 20
240.7006046601
 10
185.1166169947
 20
243.4788665601
 10
182.7450301355
 20
246.1307666131
 10
180.0793502336
 20
248.6391386815
 10
177.136873812
 20
250.9877106973
 10
173.936674357
 20
253.1612536737
 10
170.4995166367
 20
255.1456413098
 10
166.847683475
 20
256.9280288049
 10
163.0048639929
 20
258.4968528577
 10
158.9959766572
 20
259.841921074
 10
154.8470239943
 20
260.954560978
 10
150.5849100506
 20
261.8275008031
 10
146.2372792741
 20
262.4551079103
 10
141.8323251275
 20
262.8333291837
 10
137.3986173278
 20
262.9596612283
  0
LWPOLYLINE
  5
8A
330
1F
100
AcDbEntity
  8
0
  6
Continuous
 62
     7
370
    25
100
AcDbPolyline
 90
       84
 70
   128
 43
0.0
 10
137.3986173278
 20
268.1922635862
 10
132.6718209168
 20
268.065693123
 10
127.9720989844
 20
267.6866969892
 10
123.3263714095
 20
267.0574805566
 10
118.7612470096
 20
266.1815903016
 10
114.3028773224
 20
265.064092619
 10
109.9767982816
 20
263.7113950082
 10
105.8077867931
 20
262.1311864682
 10
101.8197294181
 20
260.3325865098
 10
98.0354603236
 20
258.3258471318
 10
94.4766606992
 20
256.1225018331
 10
91.1637153333
 20
253.7351271936
 10
88.1155971294
 20
251.1774322816
 10
85.3497702485
 20
248.4640500375
 10
82.8820708996
 20
245.6105372735
 10
80.7266402846
 20
242.6332256623
 10
78.8958202904
 20
239.5491621324
 10
77.4001013344
 20
236.3760492631
 10
76.248047859
 20
233.1320068666
 10
75.4462573534
 20
229.8356613942
 10
74.9993231004
 20
226.5058777162
 10
74.9098080998
 20
223.1617293187
 10
75.1782264417
 20
219.8223790952
 10
75.8030321305
 20
216.5069601365
 10
76.7806563383
 20
213.2344267198
 10
78.105492503
 20
210.023554308
 10
79.7699559336
 20
206.8927011319
 10
81.764509887
 20
203.8598677941
 10
84.0777288979
 20
200.9423396417
 10
86.6963695591
 20
198.1569251844
 10
89.6054226762
 20
195.5194792577
 10
92.7882362014
 20
193.0451712438
 10
96.2265711134
 20
190.7481572457
 10
99.9007355278
 20
188.6416098901
 10
103.7896852797
 20
186.7375693151
 10
107.8711449956
 20
185.046972973
 10
112.1217328912
 20
183.579447014
 10
116.5171060568
 20
182.3434850999
 10
121.032087118
 20
181.3460609742
 10
125.6408132469
 20
180.5929860898
 10
130.3168875022
 20
180.0885221788
 10
135.0335250465
 20
179.8355600663
 10
139.763709609
 20
179.8355600663
 10
144.4803471533
 20
180.0885221788
 10
149.1564214086
 20
180.5929860898
 10
153.7651475375
 20
181.3460609742
 10
158.2801285988
 20
182.3434850999
 10
162.6755017644
 20
183.579447014
 10
166.9260896599
 20
185.046972973
 10
171.0075493758
 20
186.7375693151
 10
174.8964991277
 20
188.6416098901
 10
178.5706635421
 20
190.7481572457
 10
182.0089984542
 20
193.0451712438
 10
185.1918119794
 20
195.5194792577
 10
188.1008650964
 20
198.1569251844
 10
190.7195057576
 20
200.9423396417
 10
193.0327247685
 20
203.8598677941
 10
195.0272787219
 20
206.8927011319
 10
196.6917421525
 20
210.023554308
 10
198.0165783172
 20
213.2344267198
 10
198.994202525
 20
216.5069601365
 10
199.6190082138
 20
219.8223790952
 10
199.8874265557
 20
223.1617293187
 10
199.7979115551
 20
226.5058777162
 10
199.3509773021
 20
229.8356613942
 10
198.5491867965
 20
233.1320068666
 10
197.3971333211
 20
236.3760492631
 10
195.9014143651
 20
239.5491621324
 10
194.0705943709
 20
242.6332256623
 10
191.915163756
 20
245.6105372735
 10
189.447464407
 20
248.4640500375
 10
186.6816375261
 20
251.1774322816
 10
183.6335193222
 20
253.7351271936
 10
180.3205739563
 20
256.1225018331
 10
176.7617743319
 20
258.3258471318
 10
172.9775052374
 20
260.3325865098
 10
168.9894478625
 20
262.1311864682
 10
164.8204363739
 20
263.7113950082
 10
160.4943573331
 20
265.064092619
 10
156.0359876459
 20
266.1815903016
 10
151.470863246
 20
267.0574805566
 10
146.8251356711
 20
267.6866969892
 10
142.1254137387
 20
268.065693123
 10
137.3986173278
 20
268.1922635862
  0
ELLIPSE
  5
8B
330
1F
100
AcDbEntity
  8
0
  6
Continuous
 62
     7
370
    25
100
AcDbEllipse
 10
137.3986173278
 20
28.1294998952
 30
0.0
 11
62.49999999999997
 21
0.0
 31
0.0
210
0.0
220
0.0
230
1.0
 40
0.4142135624
 41
3.141592653589828
 42
6.283185307179586
  0
LINE
  5
8C
330
1F
100
AcDbEntity
  8
0
  6
Continuous
 62
     7
370
    25
100
AcDbLine
 10
74.8986173278
 20
-106.8705001048
 30
0.0
 11
199.8986173278
 21
-106.8705001048
 31
0.0
  0
LINE
  5
8D
330
1F
100
AcDbEntity
  8
0
  6
Continuous
 62
     7
370
    25
100
AcDbLine
 10
74.8986173278
 20
305.129500372
 30
0.0
 11
199.8986173278
 21
305.129500372
 31
0.0
  0
LINE
  5
8E
330
1F
100
AcDbEntity
  8
0
  6
Continuous
 62
     7
370
    25
100
AcDbLine
 10
199.8986173278
 20
438.0803809678
 30
0.0
 11
199.8986173278
 21
633.9489625012
 31
0.0
  0
LINE
  5
8F
330
1F
100
AcDbEntity
  8
0
  6
Continuous
 62
     7
370
    25
100
AcDbLine
 10
74.8986173278
 20
633.9489625012
 30
0.0
 11
74.8986173278
 21
438.0803809678
 31
0.0
  0
CIRCLE
  5
90
330
1F
100
AcDbEntity
  8
0
  6
Continuous
 62
     7
370
    25
100
AcDbCircle
 10
137.3986173278
 20
633.9489625012
 30
0.0
 40
55.10000000000001
  0
CIRCLE
  5
91
330
1F
100
AcDbEntity
  8
0
  6
Continuous
 62
     7
370
    25
100
AcDbCircle
 10
137.3986173278
 20
633.9489625012
 30
0.0
 40
62.50000000000001
  0
LWPOLYLINE
  5
92
330
1F
100
AcDbEntity
  8
0
  6
Continuous
 62
     7
370
    25
100
AcDbPolyline
 90
       84
 70
   128
 43
0.0
 10
137.3986173278
 20
482.2745577609
 10
132.6718209168
 20
482.1479872977
 10
127.9720989844
 20
481.769006065
 10
123.3263714095
 20
481.1397747313
 10
118.7612470096
 20
480.2638993775
 10
114.3028773224
 20
479.1464016949
 10
109.9767982816
 20
477.7936891829
 10
105.8077867931
 20
476.2135104453
 10
101.8197294181
 20
474.4148955857
 10
98.0354603236
 20
472.4081562077
 10
94.4766606992
 20
470.2047960078
 10
91.1637153333
 20
467.8174362694
 10
88.1155971294
 20
465.2597264563
 10
85.3497702485
 20
462.5463591134
 10
82.8820708996
 20
459.6928314482
 10
80.7266402846
 20
456.715519837
 10
78.8958202904
 20
453.6314712082
 10
77.4001013344
 20
450.4583434378
 10
76.248047859
 20
447.2143159424
 10
75.4462573534
 20
443.9179704701
 10
74.9993231004
 20
440.5882016932
 10
74.9098080998
 20
437.2440532958
 10
75.1782264417
 20
433.9046881711
 10
75.8030321305
 20
430.5892543112
 10
76.7806563383
 20
427.3167208945
 10
78.105492503
 20
424.1058484828
 10
79.7699559336
 20
420.9750102078
 10
81.764509887
 20
417.9421619689
 10
84.0777288979
 20
415.0246636187
 10
86.6963695591
 20
412.2392193591
 10
89.6054226762
 20
409.6017883336
 10
92.7882362014
 20
407.1274803196
 10
96.2265711134
 20
404.8304812228
 10
99.9007355278
 20
402.723918966
 10
103.7896852797
 20
400.8198783909
 10
107.8711449956
 20
399.1292671477
 10
112.1217328912
 20
397.661770991
 10
116.5171060568
 20
396.4257792746
 10
121.032087118
 20
395.4283849513
 10
125.6408132469
 20
394.6752951657
 10
130.3168875022
 20
394.1708163535
 10
135.0335250465
 20
393.9178691422
 10
139.763709609
 20
393.9178691422
 10
144.4803471533
 20
394.1708163535
 10
149.1564214086
 20
394.6752951657
 10
153.7651475375
 20
395.4283849513
 10
158.2801285988
 20
396.4257792746
 10
162.6755017644
 20
397.661770991
 10
166.9260896599
 20
399.1292671477
 10
171.0075493758
 20
400.8198783909
 10
174.8964991277
 20
402.723918966
 10
178.5706635421
 20
404.8304812228
 10
182.0089984542
 20
407.1274803196
 10
185.1918119794
 20
409.6017883336
 10
188.1008650964
 20
412.2392193591
 10
190.7195057576
 20
415.0246636187
 10
193.0327247685
 20
417.9421619689
 10
195.0272787219
 20
420.9750102078
 10
196.6917421525
 20
424.1058484828
 10
198.0165783172
 20
427.3167208945
 10
198.994202525
 20
430.5892543112
 10
199.6190082138
 20
433.9046881711
 10
199.8874265557
 20
437.2440532958
 10
199.7979115551
 20
440.5882016932
 10
199.3509773021
 20
443.9179704701
 10
198.5491867965
 20
447.2143159424
 10
197.3971333211
 20
450.4583434378
 10
195.9014143651
 20
453.6314712082
 10
194.0705943709
 20
456.715519837
 10
191.915163756
 20
459.6928314482
 10
189.447464407
 20
462.5463591134
 10
186.6816375261
 20
465.2597264563
 10
183.6335193222
 20
467.8174362694
 10
180.3205739563
 20
470.2047960078
 10
176.7617743319
 20
472.4081562077
 10
172.9775052374
 20
474.4148955857
 10
168.9894478625
 20
476.2135104453
 10
164.8204363739
 20
477.7936891829
 10
160.4943573331
 20
479.1464016949
 10
156.0359876459
 20
480.2638993775
 10
151.470863246
 20
481.1397747313
 10
146.8251356711
 20
481.769006065
 10
142.1254137387
 20
482.1479872977
 10
137.3986173278
 20
482.2745577609
  0
LWPOLYLINE
  5
93
330
1F
100
AcDbEntity
  8
0
  6
Continuous
 62
     7
370
    25
100
AcDbPolyline
 90
       79
 70
   128
 43
0.0
 10
137.3986173278
 20
477.0419703042
 10
132.964909528
 20
476.9156233584
 10
128.5599553814
 20
476.5374318873
 10
124.2123246049
 20
475.909809879
 10
119.9502106612
 20
475.0368700539
 10
115.8012579983
 20
473.9242450511
 10
111.7923706626
 20
472.5791470324
 10
107.9495511806
 20
471.0103229796
 10
104.2977180188
 20
469.2279354846
 10
100.8605602985
 20
467.2435478484
 10
97.6603608435
 20
465.0700197732
 10
94.7178844219
 20
462.7214626586
 10
92.0522045201
 20
460.2130905901
 10
89.6806176608
 20
457.561175636
 10
87.6184981173
 20
454.7829286372
 10
85.8792234069
 20
451.8963501965
 10
84.4740699833
 20
448.9201710736
 10
83.412153632
 20
445.8737031733
 10
82.7003586894
 20
442.7766905343
 10
82.3433045154
 20
439.6492050206
 10
82.3433045154
 20
436.511556915
 10
82.7003586894
 20
433.3840863024
 10
83.412153632
 20
430.2870736634
 10
84.4740699833
 20
427.2405908619
 10
85.8792234069
 20
424.264411739
 10
87.6184981173
 20
421.3778481995
 10
89.6806176608
 20
418.5995862996
 10
92.0522045201
 20
415.9476862465
 10
94.7178844219
 20
413.4393141781
 10
97.6603608435
 20
411.0907421624
 10
100.8605602985
 20
408.9172140872
 10
104.2977180188
 20
406.932826451
 10
107.9495511806
 20
405.1504389559
 10
111.7923706626
 20
403.5816149031
 10
115.8012579983
 20
402.2365317856
 10
119.9502106612
 20
401.1239067828
 10
124.2123246049
 20
400.2509520566
 10
128.5599553814
 20
399.6233449494
 10
132.964909528
 20
399.2451385771
 10
137.3986173278
 20
399.1188065325
 10
141.8323251275
 20
399.2451385771
 10
146.2372792741
 20
399.6233449494
 10
150.5849100506
 20
400.2509520566
 10
154.8470239943
 20
401.1239067828
 10
158.9959766572
 20
402.2365317856
 10
163.0048639929
 20
403.5816149031
 10
166.847683475
 20
405.1504389559
 10
170.4995166367
 20
406.932826451
 10
173.936674357
 20
408.9172140872
 10
177.136873812
 20
411.0907421624
 10
180.0793502336
 20
413.4393141781
 10
182.7450301355
 20
415.9476862465
 10
185.1166169947
 20
418.5995862996
 10
187.1787365382
 20
421.3778481995
 10
188.9180112487
 20
424.264411739
 10
190.3231646722
 20
427.2405908619
 10
191.3850810235
 20
430.2870736634
 10
192.0968759661
 20
433.3840863024
 10
192.4539301401
 20
436.511556915
 10
192.4539301401
 20
439.6492050206
 10
192.0968759661
 20
442.7766905343
 10
191.3850810235
 20
445.8737031733
 10
190.3231646722
 20
448.9201710736
 10
188.9180112487
 20
451.8963501965
 10
187.1787365382
 20
454.7829286372
 10
185.1166169947
 20
457.561175636
 10
182.7450301355
 20
460.2130905901
 10
180.0793502336
 20
462.7214626586
 10
177.136873812
 20
465.0700197732
 10
173.936674357
 20
467.2435478484
 10
170.4995166367
 20
469.2279354846
 10
166.847683475
 20
471.0103229796
 10
163.0048639929
 20
472.5791470324
 10
158.9959766572
 20
473.9242450511
 10
154.8470239943
 20
475.0368700539
 10
150.5849100506
 20
475.909809879
 10
146.2372792741
 20
476.5374318873
 10
141.8323251275
 20
476.9156233584
 10
137.3986173278
 20
477.0419703042
  0
INSERT
  5
9F
330
1F
100
AcDbEntity
  8
FORMAT
100
AcDbBlockReference
  2
SW_CENTERMARKSYMBOL_0
 10
137.3986173278
 20
633.9489625012
 30
0.0
  0
LINE
  5
A0
330
1F
100
AcDbEntity
  8
0
  6
Continuous
 62
     7
370
    25
100
AcDbLine
 10
74.8986173278
 20
-312.7857541663
 30
0.0
 11
74.8986173278
 21
-508.6543356997
 31
0.0
  0
LINE
  5
A1
330
1F
100
AcDbEntity
  8
0
  6
Continuous
 62
     7
370
    25
100
AcDbLine
 10
199.8986173278
 20
-508.6543356997
 30
0.0
 11
199.8986173278
 21
-312.7857541663
 31
0.0
  0
CIRCLE
  5
A2
330
1F
100
AcDbEntity
  8
0
  6
Continuous
 62
     7
370
    25
100
AcDbCircle
 10
137.3986173278
 20
-508.6543356997
 30
0.0
 40
55.10000000000001
  0
CIRCLE
  5
A3
330
1F
100
AcDbEntity
  8
0
  6
Continuous
 62
     7
370
    25
100
AcDbCircle
 10
137.3986173278
 20
-508.6543356997
 30
0.0
 40
62.50000000000001
  0
LWPOLYLINE
  5
A4
330
1F
100
AcDbEntity
  8
0
  6
Continuous
 62
     7
370
    25
100
AcDbPolyline
 90
       44
 70
   128
 43
0.0
 10
74.8986173278
 20
-312.7857541663
 10
74.9098080998
 20
-311.9494264943
 10
75.1782264417
 20
-308.6100613696
 10
75.8030321305
 20
-305.2946275098
 10
76.7806563383
 20
-302.022094093
 10
78.105492503
 20
-298.8112216813
 10
79.7699559336
 20
-295.6803834063
 10
81.764509887
 20
-292.6475351674
 10
84.0777288979
 20
-289.7300368172
 10
86.6963695591
 20
-286.9445925576
 10
89.6054226762
 20
-284.3071615321
 10
92.7882362014
 20
-281.8328535182
 10
96.2265711134
 20
-279.5358544213
 10
99.9007355278
 20
-277.4292921645
 10
103.7896852797
 20
-275.5252515895
 10
107.8711449956
 20
-273.8346403462
 10
112.1217328912
 20
-272.3671441895
 10
116.5171060568
 20
-271.1311524731
 10
121.032087118
 20
-270.1337581498
 10
125.6408132469
 20
-269.3806683642
 10
130.3168875022
 20
-268.876189552
 10
135.0335250465
 20
-268.6232423407
 10
139.763709609
 20
-268.6232423407
 10
144.4803471533
 20
-268.876189552
 10
149.1564214086
 20
-269.3806683642
 10
153.7651475375
 20
-270.1337581498
 10
158.2801285988
 20
-271.1311524731
 10
162.6755017644
 20
-272.3671441895
 10
166.9260896599
 20
-273.8346403462
 10
171.0075493758
 20
-275.5252515895
 10
174.8964991277
 20
-277.4292921645
 10
178.5706635421
 20
-279.5358544213
 10
182.0089984542
 20
-281.8328535182
 10
185.1918119794
 20
-284.3071615321
 10
188.1008650964
 20
-286.9445925576
 10
190.7195057576
 20
-289.7300368172
 10
193.0327247685
 20
-292.6475351674
 10
195.0272787219
 20
-295.6803834063
 10
196.6917421525
 20
-298.8112216813
 10
198.0165783172
 20
-302.022094093
 10
198.994202525
 20
-305.2946275098
 10
199.6190082138
 20
-308.6100613696
 10
199.8874265557
 20
-311.9494264943
 10
199.8986173278
 20
-312.7857541663
  0
INSERT
  5
B0
330
1F
100
AcDbEntity
  8
FORMAT
100
AcDbBlockReference
  2
SW_CENTERMARKSYMBOL_1
 10
137.3986173278
 20
-508.6543356997
 30
0.0
  0
LINE
  5
B1
330
1F
100
AcDbEntity
  8
0
  6
Continuous
 62
     7
370
    25
100
AcDbLine
 10
-292.9616614098
 20
179.0178439447
 30
0.0
 11
-292.9616614098
 21
305.129500372
 31
0.0
  0
LINE
  5
B2
330
1F
100
AcDbEntity
  8
0
  6
Continuous
 62
     7
370
    25
100
AcDbLine
 10
-292.9616614098
 20
-106.8705001048
 30
0.0
 11
-292.9616614098
 21
2.2411516734
 31
0.0
  0
LINE
  5
B3
330
1F
100
AcDbEntity
  8
0
  6
Continuous
 62
     7
370
    25
100
AcDbLine
 10
-417.9616614098
 20
305.129500372
 30
0.0
 11
-417.9616614098
 21
-106.8705001048
 31
0.0
  0
LINE
  5
B4
330
1F
100
AcDbEntity
  8
0
  6
Continuous
 62
     7
370
    25
100
AcDbLine
 10
-203.7872566695
 20
268.1922635862
 30
0.0
 11
-292.9616614098
 21
179.0178439447
 31
0.0
  0
LINE
  5
B5
330
1F
100
AcDbEntity
  8
0
  6
Continuous
 62
     7
370
    25
100
AcDbLine
 10
-292.9616614098
 20
2.2411516734
 30
0.0
 11
-115.3989030833
 21
179.80391
 31
0.0
  0
LINE
  5
B6
330
1F
100
AcDbEntity
  8
0
  6
Continuous
 62
     7
370
    25
100
AcDbLine
 10
-355.4616614098
 20
-106.8705001048
 30
0.0
 11
-292.9616614098
 21
-106.8705001048
 31
0.0
  0
LINE
  5
B7
330
1F
100
AcDbEntity
  8
0
  6
Continuous
 62
     7
370
    25
100
AcDbLine
 10
-417.9616614098
 20
-106.8705001048
 30
0.0
 11
-355.4616614098
 21
-106.8705001048
 31
0.0
  0
LINE
  5
B8
330
1F
100
AcDbEntity
  8
0
  6
Continuous
 62
     7
370
    25
100
AcDbLine
 10
-355.4616614098
 20
305.129500372
 30
0.0
 11
-292.9616614098
 21
305.129500372
 31
0.0
  0
LINE
  5
B9
330
1F
100
AcDbEntity
  8
0
  6
Continuous
 62
     7
370
    25
100
AcDbLine
 10
-417.9616614098
 20
305.129500372
 30
0.0
 11
-355.4616614098
 21
305.129500372
 31
0.0
  0
LWPOLYLINE
  5
BA
330
1F
100
AcDbEntity
  8
0
  6
Continuous
 62
     7
370
    25
100
AcDbPolyline
 90
       35
 70
   128
 43
0.0
 10
-355.4616614098
 20
28.1295052596
 10
-352.5321450404
 20
35.2019837924
 10
-349.6090683008
 20
42.2589055129
 10
-346.6988566185
 20
49.2847881147
 10
-343.8079084123
 20
56.2641492911
 10
-340.9425762336
 20
63.1816706487
 10
-338.1091604794
 20
70.0221381017
 10
-335.3138907666
 20
76.7705163785
 10
-332.5629091675
 20
83.4119788238
 10
-329.8622636909
 20
89.9319073983
 10
-327.2178924496
 20
96.3159969875
 10
-324.6356050337
 20
102.550180895
 10
-322.1210806484
 20
108.6207798549
 10
-319.6798494871
 20
114.5144424268
 10
-317.3172703798
 20
120.2182046004
 10
-315.0385401065
 20
125.7195494004
 10
-312.8486729081
 20
131.0063621827
 10
-310.7524744088
 20
136.0670200416
 10
-308.7545602436
 20
140.8904216119
 10
-306.859315079
 20
145.4659423658
 10
-305.0709112401
 20
149.7835240193
 10
-303.3932751829
 20
153.8337192365
 10
-301.8300949449
 20
157.6075575181
 10
-300.3848126943
 20
161.0967836209
 10
-299.0605986531
 20
164.2937085458
 10
-297.8603659983
 20
167.1913287469
 10
-296.7867559607
 20
169.783236725
 10
-295.8421266491
 20
172.063799841
 10
-295.028549325
 20
174.027921898
 10
-294.3478195782
 20
175.6713709661
 10
-293.8014349754
 20
176.9904515573
 10
-293.3905876095
 20
177.982332451
 10
-293.1161864514
 20
178.644778473
 10
-292.9788387234
 20
178.9763889142
 10
-292.9616614098
 20
179.0178439447
  0
LWPOLYLINE
  5
BB
330
1F
100
AcDbEntity
  8
0
  6
Continuous
 62
     7
370
    25
100
AcDbPolyline
 90
       23
 70
   128
 43
0.0
 10
-292.9616614098
 20
2.2411516734
 10
-293.0033585842
 20
2.2584221192
 10
-293.3366007025
 20
2.396459026
 10
-294.0013079758
 20
2.6717877813
 10
-294.9939302022
 20
3.0829480716
 10
-296.3091737444
 20
3.6277345248
 10
-297.9400238807
 20
4.3032563158
 10
-299.8777783329
 20
5.1058999129
 10
-302.11209197
 20
6.0313886829
 10
-304.6310513134
 20
7.0747754403
 10
-307.4212155158
 20
8.2304946014
 10
-310.467694592
 20
9.4923919865
 10
-313.7542351003
 20
10.8537173697
 10
-317.2633058245
 20
12.307221336
 10
-320.9761760051
 20
13.8451478311
 10
-324.8730457241
 20
15.4592788645
 10
-328.9331185485
 20
17.1410164662
 10
-333.1347300525
 20
18.8813826867
 10
-337.4554670269
 20
20.6710866519
 10
-341.8722755129
 20
22.5005916186
 10
-346.3615883927
 20
24.3601224252
 10
-350.8994543778
 20
26.2397697993
 10
-355.4616614098
 20
28.1295052596
  0
LWPOLYLINE
  5
BC
330
1F
100
AcDbEntity
  8
0
  6
Continuous
 62
     7
370
    25
100
AcDbPolyline
 90
       43
 70
   128
 43
0.0
 10
-203.7872566695
 20
268.1922635862
 10
-203.6606862063
 20
268.065693123
 10
-203.2817049737
 20
267.6866969892
 10
-202.6524736399
 20
267.0574805566
 10
-201.7765982861
 20
266.1815903016
 10
-200.6591006036
 20
265.064092619
 10
-199.3063880915
 20
263.7113950082
 10
-197.7262093539
 20
262.1311864682
 10
-195.9275944943
 20
260.3325865098
 10
-193.9208551164
 20
258.3258471318
 10
-191.7174949164
 20
256.1225018331
 10
-189.3301351781
 20
253.7351271936
 10
-186.772425365
 20
251.1774322816
 10
-184.059058022
 20
248.4640500375
 10
-181.2055303569
 20
245.6105372735
 10
-178.2282187457
 20
242.6332256623
 10
-175.1441701169
 20
239.5491621324
 10
-171.9710423465
 20
236.3760492631
 10
-168.7270148511
 20
233.1320068666
 10
-165.4306693787
 20
229.8356613942
 10
-162.1009006018
 20
226.5058777162
 10
-158.7567522044
 20
223.1617293187
 10
-155.4173870797
 20
219.8223790952
 10
-152.1019532199
 20
216.5069601365
 10
-148.8294198031
 20
213.2344267198
 10
-145.6185473914
 20
210.023554308
 10
-142.4877091164
 20
206.8927011319
 10
-139.4548608775
 20
203.8598677941
 10
-136.5373625274
 20
200.9423396417
 10
-133.7519182677
 20
198.1569251844
 10
-131.1144872422
 20
195.5194792577
 10
-128.6401792283
 20
193.0451712438
 10
-126.3431801314
 20
190.7481572457
 10
-124.2366178746
 20
188.6416098901
 10
-122.3325772996
 20
186.7375693151
 10
-120.6419660563
 20
185.046972973
 10
-119.1744698996
 20
183.579447014
 10
-117.9384781833
 20
182.3434850999
 10
-116.9410838599
 20
181.3460609742
 10
-116.1879940743
 20
180.5929860898
 10
-115.6835152621
 20
180.0885221788
 10
-115.4305680508
 20
179.8355600663
 10
-115.3989030833
 20
179.80391
  0
LINE
  5
BD
330
1F
100
AcDbEntity
  8
0
  6
Continuous
 62
     7
370
    25
100
AcDbLine
 10
596.5508249096
 20
-106.8705001048
 30
0.0
 11
596.5508249096
 21
305.129500372
 31
0.0
  0
LINE
  5
BE
330
1F
100
AcDbEntity
  8
0
  6
Continuous
 62
     7
370
    25
100
AcDbLine
 10
471.5508249096
 20
2.2411516734
 30
0.0
 11
471.5508249096
 21
-106.8705001048
 31
0.0
  0
LINE
  5
BF
330
1F
100
AcDbEntity
  8
0
  6
Continuous
 62
     7
370
    25
100
AcDbLine
 10
471.5508249096
 20
305.129500372
 30
0.0
 11
471.5508249096
 21
179.0178439447
 31
0.0
  0
LINE
  5
C0
330
1F
100
AcDbEntity
  8
0
  6
Continuous
 62
     7
370
    25
100
AcDbLine
 10
293.9880665831
 20
179.80391
 30
0.0
 11
471.5508249096
 21
2.2411516734
 31
0.0
  0
LINE
  5
C1
330
1F
100
AcDbEntity
  8
0
  6
Continuous
 62
     7
370
    25
100
AcDbLine
 10
471.5508249096
 20
179.0178439447
 30
0.0
 11
382.3764201693
 21
268.1922635862
 31
0.0
  0
LINE
  5
C2
330
1F
100
AcDbEntity
  8
0
  6
Continuous
 62
     7
370
    25
100
AcDbLine
 10
471.5508249096
 20
-106.8705001048
 30
0.0
 11
596.5508249096
 21
-106.8705001048
 31
0.0
  0
LINE
  5
C3
330
1F
100
AcDbEntity
  8
0
  6
Continuous
 62
     7
370
    25
100
AcDbLine
 10
471.5508249096
 20
305.129500372
 30
0.0
 11
596.5508249096
 21
305.129500372
 31
0.0
  0
LWPOLYLINE
  5
C4
330
1F
100
AcDbEntity
  8
0
  6
Continuous
 62
     7
370
    25
100
AcDbPolyline
 90
       35
 70
   128
 43
0.0
 10
471.5508249096
 20
179.0178439447
 10
471.5680022232
 20
178.9763889142
 10
471.7053499512
 20
178.644778473
 10
471.9797511093
 20
177.982332451
 10
472.3905984752
 20
176.9904515573
 10
472.936983078
 20
175.6713709661
 10
473.6177128248
 20
174.027921898
 10
474.4312901489
 20
172.063799841
 10
475.3759194605
 20
169.783236725
 10
476.4495294981
 20
167.1913287469
 10
477.6497621529
 20
164.2937085458
 10
478.9739761941
 20
161.0967836209
 10
480.4192584447
 20
157.6075575181
 10
481.9824386827
 20
153.8337192365
 10
483.6600747399
 20
149.7835240193
 10
485.4484785788
 20
145.4659423658
 10
487.3437237434
 20
140.8904216119
 10
489.3416379086
 20
136.0670200416
 10
491.4378364079
 20
131.0063621827
 10
493.6277036063
 20
125.7195494004
 10
495.9064338796
 20
120.2182046004
 10
498.2690129868
 20
114.5144424268
 10
500.7102441482
 20
108.6207798549
 10
503.2247685335
 20
102.550180895
 10
505.8070559494
 20
96.3159969875
 10
508.4514271907
 20
89.9319073983
 10
511.1520726673
 20
83.4119788238
 10
513.9030542664
 20
76.7705163785
 10
516.6983239792
 20
70.0221381017
 10
519.5317397333
 20
63.1816706487
 10
522.3970719121
 20
56.2641492911
 10
525.2880201183
 20
49.2847881147
 10
528.1982318006
 20
42.2589055129
 10
531.1213085402
 20
35.2019837924
 10
534.0508249096
 20
28.1295052596
  0
LWPOLYLINE
  5
C5
330
1F
100
AcDbEntity
  8
0
  6
Continuous
 62
     7
370
    25
100
AcDbPolyline
 90
       23
 70
   128
 43
0.0
 10
534.0508249096
 20
28.1295052596
 10
529.4886178776
 20
26.2397697993
 10
524.9507518925
 20
24.3601224252
 10
520.4614390127
 20
22.5005916186
 10
516.0446305267
 20
20.6710866519
 10
511.7238935523
 20
18.8813826867
 10
507.5222820483
 20
17.1410164662
 10
503.4622092239
 20
15.4592788645
 10
499.5653395049
 20
13.8451478311
 10
495.8524693243
 20
12.307221336
 10
492.3433986001
 20
10.8537173697
 10
489.0568580918
 20
9.4923919865
 10
486.0103790156
 20
8.2304946014
 10
483.2202148132
 20
7.0747754403
 10
480.7012554697
 20
6.0313886829
 10
478.4669418327
 20
5.1058999129
 10
476.5291873805
 20
4.3032563158
 10
474.8983372442
 20
3.6277345248
 10
473.583093702
 20
3.0829480716
 10
472.5904714756
 20
2.6717877813
 10
471.9257642023
 20
2.396459026
 10
471.5925220839
 20
2.2584221192
 10
471.5508249096
 20
2.2411516734
  0
LWPOLYLINE
  5
C6
330
1F
100
AcDbEntity
  8
0
  6
Continuous
 62
     7
370
    25
100
AcDbPolyline
 90
       44
 70
   128
 43
0.0
 10
293.9880665831
 20
179.80391
 10
294.0197315506
 20
179.8355600663
 10
294.2726787619
 20
180.0885221788
 10
294.7771575741
 20
180.5929860898
 10
295.5302473597
 20
181.3460609742
 10
296.5276416831
 20
182.3434850999
 10
297.7636333994
 20
183.579447014
 10
299.2311295561
 20
185.046972973
 10
300.9217407994
 20
186.7375693151
 10
302.8257813744
 20
188.6416098901
 10
304.9323436312
 20
190.7481572457
 10
307.2293427281
 20
193.0451712438
 10
309.703650742
 20
195.5194792577
 10
312.3410817675
 20
198.1569251844
 10
315.1265260272
 20
200.9423396417
 10
318.0440243773
 20
203.8598677941
 10
321.0768726162
 20
206.8927011319
 10
324.2077108912
 20
210.023554308
 10
327.4185833029
 20
213.2344267198
 10
330.6911167197
 20
216.5069601365
 10
334.0065505795
 20
219.8223790952
 10
337.3459157042
 20
223.1617293187
 10
340.6900641016
 20
226.5058777162
 10
344.0198328785
 20
229.8356613942
 10
347.3161783509
 20
233.1320068666
 10
350.5602058463
 20
236.3760492631
 10
353.7333336167
 20
239.5491621324
 10
356.8173822455
 20
242.6332256623
 10
359.7946938567
 20
245.6105372735
 10
362.6482215218
 20
248.4640500375
 10
365.3615888648
 20
251.1774322816
 10
367.9192986779
 20
253.7351271936
 10
370.3066584162
 20
256.1225018331
 10
372.5100186162
 20
258.3258471318
 10
374.5167579941
 20
260.3325865098
 10
376.3153728537
 20
262.1311864682
 10
377.8955515913
 20
263.7113950082
 10
379.2482641034
 20
265.064092619
 10
380.3657617859
 20
266.1815903016
 10
381.2416371397
 20
267.0574805566
 10
381.8708684735
 20
267.6866969892
 10
382.2498497061
 20
268.065693123
 10
382.3764201693
 20
268.1922635862
 10
382.3764201693
 20
268.1922635862
  0
LINE
  5
C7
330
1F
100
AcDbEntity
  8
0
  6
Continuous
 62
     7
370
    25
100
AcDbLine
 10
346.3338235085
 20
-265.6363387128
 30
0.0
 11
476.4604112398
 21
-491.0221994174
 31
0.0
  0
LINE
  5
C8
330
1F
100
AcDbEntity
  8
0
  6
Continuous
 62
     7
370
    25
100
AcDbLine
 10
549.526922754
 20
-367.5771097138
 30
0.0
 11
454.5869923844
 21
-203.1363423386
 31
0.0
  0
LINE
  5
C9
330
1F
100
AcDbEntity
  8
0
  6
Continuous
 62
     7
370
    25
100
AcDbLine
 10
601.4604091005
 20
-584.5083823389
 30
0.0
 11
601.4604091005
 21
-248.0935674526
 31
0.0
  0
LINE
  5
CA
330
1F
100
AcDbEntity
  8
0
  6
Continuous
 62
     7
370
    25
100
AcDbLine
 10
476.4604112398
 20
-489.2228261814
 30
0.0
 11
476.4604112398
 21
-584.5083823389
 31
0.0
  0
ELLIPSE
  5
CB
330
1F
100
AcDbEntity
  8
0
  6
Continuous
 62
     7
370
    25
100
AcDbEllipse
 10
538.9604101702
 20
-474.2753727343
 30
0.0
 11
62.27467251951089
 21
16.68644825292739
 31
0.0
210
0.0
220
0.0
230
1.0
 40
0.3177652438
 41
0.7004580896382426
 42
3.056652579830584
  0
ELLIPSE
  5
CC
330
1F
100
AcDbEntity
  8
0
  6
Continuous
 62
     7
370
    25
100
AcDbEllipse
 10
538.9604101702
 20
-474.2753727343
 30
0.0
 11
-40.28549911956487
 21
150.3475291403504
 31
0.0
210
0.0
220
0.0
230
1.0
 40
0.3178248929
 41
4.797329054143884
 42
5.412847070022955
  0
LWPOLYLINE
  5
CD
330
1F
100
AcDbEntity
  8
0
  6
Continuous
 62
     7
370
    25
100
AcDbPolyline
 90
       84
 70
   128
 43
0.0
 10
431.7104100458
 20
-216.3402215736
 10
428.2785614175
 20
-218.3214024124
 10
424.6873759699
 20
-220.3946121014
 10
420.9574167552
 20
-222.5479430543
 10
417.1100489328
 20
-224.7691096181
 10
413.1673153047
 20
-227.0453495857
 10
409.1518032888
 20
-229.3636226678
 10
405.0865118935
 20
-231.710699461
 10
400.9947167159
 20
-234.0730690462
 10
396.8998553552
 20
-236.437248487
 10
392.8253930691
 20
-238.7896657167
 10
388.794668675
 20
-241.1168823504
 10
384.83074967
 20
-243.4055313245
 10
380.9563742789
 20
-245.6425328613
 10
377.193698573
 20
-247.8150458067
 10
373.5643017388
 20
-249.9106470908
 10
370.0889648069
 20
-251.9173378178
 10
366.7875916263
 20
-253.8235888948
 10
363.6790929612
 20
-255.6185296273
 10
360.781273221
 20
-257.2918427804
 10
358.110740898
 20
-258.8339623031
 10
355.682774225
 20
-260.2360413975
 10
353.5112869302
 20
-261.4900452963
 10
351.6087255048
 20
-262.5887984195
 10
349.9859796409
 20
-263.526023932
 10
348.6523506211
 20
-264.2963376606
 10
347.6154670249
 20
-264.8953454494
 10
346.8812820947
 20
-265.3195716797
 10
346.4539920762
 20
-265.566652444
 10
346.3360441206
 20
-265.6350876432
 10
346.5281099435
 20
-265.5245725584
 10
347.029098995
 20
-265.2356860759
 10
347.8361452895
 20
-264.7701051463
 10
348.9446074054
 20
-264.1304709611
 10
350.3481501444
 20
-263.3204756508
 10
352.0387353122
 20
-262.344733784
 10
354.0066783534
 20
-261.2088835198
 10
356.2406984005
 20
-259.9193508795
 10
358.7280078362
 20
-258.4836143951
 10
361.4543544404
 20
-256.9098157693
 10
364.4041178666
 20
-255.2070083668
 10
367.5604235702
 20
-253.384957602
 10
370.9051691506
 20
-251.4540770784
 10
374.419196231
 20
-249.4254266915
 10
378.0824004353
 20
-247.3106491405
 10
381.8737768279
 20
-245.1218463695
 10
385.7716148428
 20
-242.8715156907
 10
389.7535911382
 20
-240.5726300242
 10
393.7968871469
 20
-238.2382658504
 10
397.8783576636
 20
-235.881870897
 10
401.9746204071
 20
-233.5168960834
 10
406.0622114365
 20
-231.1569126366
 10
410.1177050066
 20
-228.8154090528
 10
414.1178940089
 20
-226.5058207549
 10
418.0398505578
 20
-224.2413612772
 10
421.8611156515
 20
-222.0350466002
 10
425.5597913679
 20
-219.8994350711
 10
429.1147015499
 20
-217.8468388137
 10
432.5054919038
 20
-215.8889495784
 10
435.7127221956
 20
-214.037028858
 10
438.718037473
 20
-212.3016630121
 10
441.5042075774
 20
-210.6928134562
 10
444.0552957317
 20
-209.2196706457
 10
446.3566690769
 20
-207.8906723239
 10
448.3951409178
 20
-206.7134335508
 10
450.1590576508
 20
-205.6947086704
 10
451.6383066664
 20
-204.8403137405
 10
452.8244138139
 20
-204.1551797522
 10
453.7105802798
 20
-203.6431853197
 10
454.2917379055
 20
-203.3072950742
 10
454.5645597243
 20
-203.1494318947
 10
454.5274652292
 20
-203.1704738595
 10
454.1806941306
 20
-203.3703333128
 10
453.5262062568
 20
-203.7478321498
 10
452.5677658482
 20
-204.3008478018
 10
451.3108625319
 20
-205.0261763472
 10
449.7626928823
 20
-205.9196891532
 10
447.9321116888
 20
-206.9762271576
 10
445.8296240533
 20
-208.1898000967
 10
443.4672708038
 20
-209.5534093073
 10
440.8585777858
 20
-211.0592473351
 10
438.0184860571
 20
-212.6987260596
 10
434.9632610085
 20
-214.4624074795
 10
431.7104100458
 20
-216.3402215736
  0
LWPOLYLINE
  5
CE
330
1F
100
AcDbEntity
  8
0
  6
Continuous
 62
     7
370
    25
100
AcDbPolyline
 90
       79
 70
   128
 43
0.0
 10
428.0104119721
 20
-218.4768915285
 10
424.7859663389
 20
-220.3383289696
 10
421.4037716372
 20
-222.2909029316
 10
417.885736655
 20
-224.3218924156
 10
414.2547053134
 20
-226.4181580305
 10
410.5342080661
 20
-228.566115187
 10
406.7483687157
 20
-230.7517878837
 10
402.9217588748
 20
-232.9610509068
 10
399.079184598
 20
-235.1795583426
 10
395.2455731119
 20
-237.3929184748
 10
391.445773935
 20
-239.5867964427
 10
387.7044482421
 20
-241.7469416132
 10
384.0458410077
 20
-243.8593434741
 10
380.4936888101
 20
-245.9102970311
 10
377.0710328046
 20
-247.8865351267
 10
373.8000606727
 20
-249.7751980268
 10
370.7019907185
 20
-251.5640706817
 10
367.7969243544
 20
-253.2415218955
 10
365.1036906852
 20
-254.7967157397
 10
362.6397490428
 20
-256.2195339907
 10
360.4210967903
 20
-257.5007510396
 10
358.4621165399
 20
-258.6320491145
 10
356.7755129321
 20
-259.6061277936
 10
355.3722125375
 20
-260.4166401362
 10
354.2613296121
 20
-261.0583341378
 10
353.4500739011
 20
-261.5270451383
 10
352.9436847846
 20
-261.8197460283
 10
352.7454734244
 20
-261.9345229183
 10
352.8567068601
 20
-261.8706420838
 10
353.2766606929
 20
-261.6285195521
 10
354.0026269876
 20
-261.2097043907
 10
355.0298905656
 20
-260.6169410784
 10
356.3517882735
 20
-259.8540622979
 10
357.959745862
 20
-258.9260163236
 10
359.8433398884
 20
-257.8388312976
 10
361.9903477667
 20
-256.5995498445
 10
364.3868452319
 20
-255.2161849796
 10
367.0172991947
 20
-253.6977395132
 10
369.864639852
 20
-252.0540427601
 10
372.9104144576
 20
-250.2957956056
 10
376.1348495541
 20
-248.434327747
 10
379.5170547924
 20
-246.4817842025
 10
383.035079238
 20
-244.4507886358
 10
386.6661211163
 20
-242.3545291036
 10
390.3866183636
 20
-240.2065719471
 10
394.1724471772
 20
-238.0208688329
 10
397.9990570181
 20
-235.8116058097
 10
401.841631295
 20
-233.593098374
 10
405.6752427811
 20
-231.3797382418
 10
409.475041958
 20
-229.1858846087
 10
413.2163781876
 20
-227.0257455209
 10
416.874985422
 20
-224.91334366
 10
420.4271270828
 20
-222.8623840203
 10
423.8497936251
 20
-220.8861520074
 10
427.1207552203
 20
-218.9974830246
 10
430.2188251745
 20
-217.2086103697
 10
433.1239020752
 20
-215.5311409038
 10
435.8171357445
 20
-213.9759470596
 10
438.2810668502
 20
-212.5531470607
 10
440.4997191027
 20
-211.2719300118
 10
442.4587098898
 20
-210.1406136848
 10
444.1453134975
 20
-209.1665350057
 10
445.5486033554
 20
-208.3560409152
 10
446.6594862809
 20
-207.7143469136
 10
447.4707525286
 20
-207.2456419958
 10
447.9771311084
 20
-206.9529350231
 10
448.1753530053
 20
-206.8381642158
 10
448.0641195696
 20
-206.9020450503
 10
447.6441552001
 20
-207.1441614993
 10
446.9181889054
 20
-207.5629523259
 10
445.8909253274
 20
-208.1557156382
 10
444.5690276194
 20
-208.9185944187
 10
442.961070031
 20
-209.846640393
 10
441.0774865413
 20
-210.9338558365
 10
438.9304786629
 20
-212.1731372896
 10
436.533970661
 20
-213.5564960718
 10
433.903527235
 20
-215.0749476209
 10
431.0561760409
 20
-216.7186139564
 10
428.0104119721
 20
-218.4768915285
  0
LWPOLYLINE
  5
CF
330
1F
100
AcDbEntity
  8
0
  6
Continuous
 62
     7
370
    25
100
AcDbPolyline
 90
       84
 70
   128
 43
0.0
 10
494.766236346
 20
-610.0211358334
 10
491.5504561708
 20
-608.0185712804
 10
488.6062380187
 20
-605.8813411324
 10
485.9504412876
 20
-603.6216902736
 10
483.5982803314
 20
-601.2525592989
 10
481.5632316049
 20
-598.7875187441
 10
479.856948053
 20
-596.2406892506
 10
478.4891998423
 20
-593.6266586884
 10
477.4678315547
 20
-590.960399659
 10
476.7986844801
 20
-588.2571820567
 10
476.4855913476
 20
-585.5324939931
 10
476.5303513007
 20
-582.8019391514
 10
476.9327035559
 20
-580.0811577111
 10
477.6903484756
 20
-577.3857351074
 10
478.798937032
 20
-574.73111079
 10
480.2521287585
 20
-572.1324900245
 10
482.0415943842
 20
-569.604757213
 10
484.1570882737
 20
-567.1623914969
 10
486.5864905738
 20
-564.8193815988
 10
489.3158836048
 20
-562.5891482677
 10
492.3296356605
 20
-560.4844654891
 10
495.6104855485
 20
-558.517390391
 10
499.1396422773
 20
-556.6991904891
 10
502.896884991
 20
-555.0402768718
 10
506.8606992874
 20
-553.5501559191
 10
511.0083765763
 20
-552.2373597782
 10
515.3161611815
 20
-551.1094101059
 10
519.759376782
 20
-550.1727663646
 10
524.3125732665
 20
-549.4327927483
 10
528.9496749068
 20
-548.8937304294
 10
533.6441120661
 20
-548.5586641047
 10
538.3690055919
 20
-548.4295159117
 10
543.0972840364
 20
-548.5070233798
 10
547.8018654153
 20
-548.7907439913
 10
552.4558073557
 20
-549.2790506202
 10
557.0324480248
 20
-549.9691490195
 10
561.5055707655
 20
-550.8570846646
 10
565.8495595136
 20
-551.9377716457
 10
570.0395278722
 20
-553.2050215614
 10
574.0514797965
 20
-554.6515724108
 10
577.8624324125
 20
-556.2691412478
 10
581.4505562867
 20
-558.0484625775
 10
584.7953018671
 20
-559.9793431011
 10
587.8775107769
 20
-562.0507229231
 10
590.6795257914
 20
-564.2507390397
 10
593.1852968639
 20
-566.566789587
 10
595.3804759559
 20
-568.9856068345
 10
597.2524835503
 20
-571.4933381602
 10
598.7905998594
 20
-574.0756169531
 10
599.986014875
 20
-576.7176553739
 10
600.831878417
 20
-579.4043188689
 10
601.3233501833
 20
-582.1202158895
 10
601.4576116035
 20
-584.8497929348
 10
601.2338961316
 20
-587.5774159082
 10
600.653481344
 20
-590.2874567954
 10
599.7196968418
 20
-592.964398592
 10
598.4378860551
 20
-595.5929029733
 10
596.8153957065
 20
-598.1579167415
 10
594.8615178589
 20
-600.6447478605
 10
592.5874418421
 20
-603.039150993
 10
590.0061969592
 20
-605.3274122793
 10
587.1325629246
 20
-607.4964223293
 10
583.9830070552
 20
-609.5337611428
 10
580.5755638394
 20
-611.4277554683
 10
576.9297513016
 20
-613.1675574974
 10
573.0664552633
 20
-614.7432025557
 10
569.0078033137
 20
-616.1456666512
 10
564.7770433912
 20
-617.3669152786
 10
560.3984072994
 20
-618.3999517955
 10
555.8969763645
 20
-619.2388615225
 10
551.298533921
 20
-619.8788360739
 10
546.6294191151
 20
-620.3162151762
 10
541.9163767563
 20
-620.548488189
 10
537.1864045353
 20
-620.5743275599
 10
532.4665949732
 20
-620.3935827418
 10
527.7839773707
 20
-620.0072923581
 10
523.1653808311
 20
-619.4176689961
 10
518.637256453
 20
-618.6280847608
 10
514.2255403535
 20
-617.643068233
 10
509.9555022024
 20
-616.4682596097
 10
505.8516023182
 20
-615.1103859928
 10
501.9373481058
 20
-613.5772271742
 10
498.2351557617
 20
-611.8775662133
 10
494.766236346
 20
-610.0211358334
  0
LWPOLYLINE
  5
D0
330
1F
100
AcDbEntity
  8
0
  6
Continuous
 62
     7
370
    25
100
AcDbPolyline
 90
       41
 70
   128
 43
0.0
 10
477.2475089041
 20
-242.385490439
 10
477.6903484756
 20
-240.9709202211
 10
478.798937032
 20
-238.3162959037
 10
480.2521287585
 20
-235.7176751382
 10
482.0415943842
 20
-233.1899423267
 10
484.1570882737
 20
-230.7475766106
 10
486.5864905738
 20
-228.4045667125
 10
489.3158836048
 20
-226.1743333814
 10
492.3296356605
 20
-224.0696506028
 10
495.6104855485
 20
-222.1025755047
 10
499.1396422773
 20
-220.2843756028
 10
502.896884991
 20
-218.6254619856
 10
506.8606992874
 20
-217.1353410328
 10
511.0083765763
 20
-215.8225448919
 10
515.3161611815
 20
-214.6945952196
 10
519.759376782
 20
-213.7579514784
 10
524.3125732665
 20
-213.017977862
 10
528.9496749068
 20
-212.4789155431
 10
533.6441120661
 20
-212.1438492184
 10
538.3690055919
 20
-212.0147010254
 10
543.0972840364
 20
-212.0922084935
 10
547.8018654153
 20
-212.375929105
 10
552.4558073557
 20
-212.8642357339
 10
557.0324480248
 20
-213.5543341332
 10
561.5055707655
 20
-214.4422697783
 10
565.8495595136
 20
-215.5229567594
 10
570.0395278722
 20
-216.7902066751
 10
574.0514797965
 20
-218.2367575245
 10
577.8624324125
 20
-219.8543263615
 10
581.4505562867
 20
-221.6336476912
 10
584.7953018671
 20
-223.5645282148
 10
587.8775107769
 20
-225.6359080368
 10
590.6795257914
 20
-227.8359241534
 10
593.1852968639
 20
-230.1519747008
 10
595.3804759559
 20
-232.5707919482
 10
597.2524835503
 20
-235.0785232739
 10
598.7905998594
 20
-237.6608020668
 10
599.986014875
 20
-240.3028404877
 10
600.831878417
 20
-242.9895039826
 10
601.3233501833
 20
-245.7054010032
 10
601.4604091005
 20
-248.0935674526
  0
LWPOLYLINE
  5
D1
330
1F
100
AcDbEntity
  8
0
  6
Continuous
 62
     7
370
    25
100
AcDbPolyline
 90
       79
 70
   128
 43
0.0
 10
499.9988255405
 20
-607.000426389
 10
496.9900611363
 20
-605.1176340949
 10
494.2534902994
 20
-603.1011825148
 10
491.8068624506
 20
-600.9641496749
 10
489.6660409393
 20
-598.7203952299
 10
487.8449151279
 20
-596.3844701735
 10
486.3552914021
 20
-593.9715235058
 10
485.206831927
 20
-591.4972060511
 10
484.4069835239
 20
-588.9775624895
 10
483.9609381578
 20
-586.4289355539
 10
483.8715815706
 20
-583.8678512192
 10
484.139501184
 20
-581.3109228991
 10
484.7629531723
 20
-578.7747290318
 10
485.7378967062
 20
-576.2757233599
 10
487.0580097586
 20
-573.8301071933
 10
488.7147299336
 20
-571.4537450116
 10
490.6973111021
 20
-569.1620466115
 10
492.9928978167
 20
-566.9698754858
 10
495.5866007154
 20
-564.8914475085
 10
498.4616004067
 20
-562.9402435905
 10
501.5992498737
 20
-561.1289171084
 10
504.9792004203
 20
-559.4692151143
 10
508.5795333805
 20
-557.9719023021
 10
512.3768966012
 20
-556.6466882998
 10
516.3466647985
 20
-555.502168553
 10
520.4630908578
 20
-554.5457643535
 10
524.6994813358
 20
-553.7836793099
 10
529.0283551704
 20
-553.2208563877
 10
533.4216478288
 20
-552.8609452159
 10
537.8508575046
 20
-552.7062785152
 10
542.287266389
 20
-552.757862975
 10
546.702096087
 20
-553.0153594839
 10
551.0667196687
 20
-553.4771021385
 10
555.352827623
 20
-554.1400936813
 10
559.5326267373
 20
-555.0000351538
 10
563.5790060514
 20
-556.0513487069
 10
567.4657238837
 20
-557.2872186592
 10
571.1675744432
 20
-558.6996268523
 10
574.660549502
 20
-560.2794155697
 10
577.9219947998
 20
-562.0163382888
 10
580.930759204
 20
-563.8991305829
 10
583.667330041
 20
-565.915582163
 10
586.1139578897
 20
-568.0526150029
 10
588.254779401
 20
-570.2963694479
 10
590.0759052125
 20
-572.6322945043
 10
591.5655289383
 20
-575.045241172
 10
592.7139884133
 20
-577.5195586267
 10
593.5138368164
 20
-580.0392021883
 10
593.9598821825
 20
-582.5878291239
 10
594.0492387697
 20
-585.1489134586
 10
593.7813191563
 20
-587.7058417787
 10
593.157867168
 20
-590.242035646
 10
592.1829236341
 20
-592.7410413179
 10
590.8628105818
 20
-595.1866574845
 10
589.2060904067
 20
-597.5630196662
 10
587.2235092382
 20
-599.8547180663
 10
584.9279225236
 20
-602.046889192
 10
582.3342196249
 20
-604.1253171693
 10
579.4592199336
 20
-606.0765210873
 10
576.3215704666
 20
-607.8878475694
 10
572.94161992
 20
-609.5475495635
 10
569.3412869599
 20
-611.0448623757
 10
565.5439237391
 20
-612.370076378
 10
561.5741555418
 20
-613.5145961248
 10
557.4577294826
 20
-614.4710003243
 10
553.2213390045
 20
-615.2330853679
 10
548.8924651699
 20
-615.7959082901
 10
544.4991725115
 20
-616.155819462
 10
540.0699628357
 20
-616.3104861626
 10
535.6335539513
 20
-616.2589017028
 10
531.2187242534
 20
-616.0014051939
 10
526.8541006716
 20
-615.5396625393
 10
522.5679927174
 20
-614.8766709965
 10
518.388193603
 20
-614.016729524
 10
514.3418142889
 20
-612.9654159709
 10
510.4550964566
 20
-611.7295460187
 10
506.7532458971
 20
-610.3171378255
 10
503.2602708383
 20
-608.7373491081
 10
499.9988255405
 20
-607.000426389
  0
ENDSEC
  0
SECTION
  2
OBJECTS
  0
DICTIONARY
  5
C
330
0
100
AcDbDictionary
281
     1
  3
ACAD_GROUP
350
D
  3
ACAD_LAYOUT
350
1A
  3
ACAD_MLINESTYLE
350
17
  3
ACAD_PLOTSETTINGS
350
19
  3
ACAD_PLOTSTYLENAME
350
E
  3
ACAD_SCALELIST
350
47
  0
DICTIONARY
  5
D
102
{ACAD_REACTORS
330
C
102
}
330
C
100
AcDbDictionary
281
     1
  0
DICTIONARY
  5
1A
102
{ACAD_REACTORS
330
C
102
}
330
C
100
AcDbDictionary
281
     1
  3
Layout1
350
1E
  3
Layout2
350
26
  3
Model
350
22
  0
DICTIONARY
  5
17
102
{ACAD_REACTORS
330
C
102
}
330
C
100
AcDbDictionary
281
     1
  3
Standard
350
18
  0
DICTIONARY
  5
19
102
{ACAD_REACTORS
330
C
102
}
330
C
100
AcDbDictionary
281
     1
  0
ACDBDICTIONARYWDFLT
  5
E
102
{ACAD_REACTORS
330
C
102
}
330
C
100
AcDbDictionary
281
     1
  3
Normal
350
F
100
AcDbDictionaryWithDefault
340
F
  0
DICTIONARY
  5
47
102
{ACAD_REACTORS
330
C
102
}
330
C
100
AcDbDictionary
281
     1
  3
A0
350
48
  3
A1
350
49
  3
A2
350
4A
  3
A3
350
4B
  3
A4
350
4C
  3
A5
350
4D
  3
A6
350
4E
  3
A7
350
4F
  3
A8
350
50
  3
A9
350
51
  3
B0
350
52
  3
B1
350
53
  3
B2
350
54
  3
B3
350
55
  3
B4
350
56
  3
B5
350
57
  3
B6
350
58
  3
B7
350
59
  3
B8
350
5A
  3
B9
350
5B
  3
C0
350
5C
  3
C1
350
5D
  3
C2
350
5E
  3
C3
350
5F
  3
C4
350
60
  3
C5
350
61
  3
C6
350
62
  3
C7
350
63
  3
C8
350
64
  3
C9
350
65
  3
D0
350
66
  3
D1
350
67
  3
D2
350
68
  0
LAYOUT
  5
1E
102
{ACAD_REACTORS
330
1A
102
}
330
1A
100
AcDbPlotSettings
  1

  2
none_device
  4

  6

 40
0.0
 41
0.0
 42
0.0
 43
0.0
 44
0.0
 45
0.0
 46
0.0
 47
0.0
 48
0.0
 49
0.0
140
0.0
141
0.0
142
1.0
143
1.0
 70
   688
 72
     1
 73
     0
 74
     5
  7

 75
    16
147
1.0
148
0.0
149
0.0
100
AcDbLayout
  1
Layout1
 70
     1
 71
     1
 10
0.0
 20
0.0
 11
420.0
 21
297.0
 12
0.0
 22
0.0
 32
0.0
 14
1.0000000000E+20
 24
1.0000000000E+20
 34
1.0000000000E+20
 15
-1.0000000000E+20
 25
-1.0000000000E+20
 35
-1.0000000000E+20
146
0.0
 13
0.0
 23
0.0
 33
0.0
 16
1.0
 26
0.0
 36
0.0
 17
0.0
 27
1.0
 37
0.0
 76
     0
330
1B
  0
LAYOUT
  5
26
102
{ACAD_REACTORS
330
1A
102
}
330
1A
100
AcDbPlotSettings
  1

  2
none_device
  4

  6

 40
0.0
 41
0.0
 42
0.0
 43
0.0
 44
0.0
 45
0.0
 46
0.0
 47
0.0
 48
0.0
 49
0.0
140
0.0
141
0.0
142
1.0
143
1.0
 70
   688
 72
     1
 73
     0
 74
     5
  7

 75
    16
147
1.0
148
0.0
149
0.0
100
AcDbLayout
  1
Layout2
 70
     1
 71
     2
 10
0.0
 20
0.0
 11
0.0
 21
0.0
 12
0.0
 22
0.0
 32
0.0
 14
0.0
 24
0.0
 34
0.0
 15
0.0
 25
0.0
 35
0.0
146
0.0
 13
0.0
 23
0.0
 33
0.0
 16
1.0
 26
0.0
 36
0.0
 17
0.0
 27
1.0
 37
0.0
 76
     0
330
23
  0
LAYOUT
  5
22
102
{ACAD_REACTORS
330
1A
102
}
330
1A
100
AcDbPlotSettings
  1

  2
none_device
  4
Letter_(8.50_x_11.00_Inches)
  6

 40
6.35
 41
6.35
 42
6.35000508
 43
6.35000508
 44
215.9
 45
279.4
 46
0.0
 47
0.0
 48
0.0
 49
0.0
140
0.0
141
0.0
142
1.0
143
1.0
 70
  1712
 72
     1
 73
     0
 74
     0
  7

 75
     0
147
1.0
148
0.0
149
0.0
100
AcDbLayout
  1
Model
 70
     1
 71
     0
 10
0.0
 20
0.0
 11
279.4
 21
215.9
 12
0.0
 22
0.0
 32
0.0
 14
0.0
 24
0.0
 34
0.0
 15
279.4
 25
215.9
 35
0.0
146
0.0
 13
0.0
 23
0.0
 33
0.0
 16
1.0
 26
0.0
 36
0.0
 17
0.0
 27
1.0
 37
0.0
 76
     0
330
1F
331
29
  0
MLINESTYLE
  5
18
102
{ACAD_REACTORS
330
17
102
}
330
17
100
AcDbMlineStyle
  2
Standard
 70
     0
  3

 62
   256
 51
90.0
 52
90.0
 71
     2
 49
0.5
 62
   256
  6
BYLAYER
 49
-0.5
 62
   256
  6
BYLAYER
  0
ACDBPLACEHOLDER
  5
F
102
{ACAD_REACTORS
330
E
102
}
330
E
  0
SCALE
  5
48
102
{ACAD_REACTORS
330
47
102
}
330
47
100
AcDbScale
 70
     0
300
1:1
140
1.0
141
1.0
290
     1
  0
SCALE
  5
49
102
{ACAD_REACTORS
330
47
102
}
330
47
100
AcDbScale
 70
     0
300
1:2
140
1.0
141
2.0
290
     0
  0
SCALE
  5
4A
102
{ACAD_REACTORS
330
47
102
}
330
47
100
AcDbScale
 70
     0
300
1:4
140
1.0
141
4.0
290
     0
  0
SCALE
  5
4B
102
{ACAD_REACTORS
330
47
102
}
330
47
100
AcDbScale
 70
     0
300
1:5
140
1.0
141
5.0
290
     0
  0
SCALE
  5
4C
102
{ACAD_REACTORS
330
47
102
}
330
47
100
AcDbScale
 70
     0
300
1:8
140
1.0
141
8.0
290
     0
  0
SCALE
  5
4D
102
{ACAD_REACTORS
330
47
102
}
330
47
100
AcDbScale
 70
     0
300
1:10
140
1.0
141
10.0
290
     0
  0
SCALE
  5
4E
102
{ACAD_REACTORS
330
47
102
}
330
47
100
AcDbScale
 70
     0
300
1:16
140
1.0
141
16.0
290
     0
  0
SCALE
  5
4F
102
{ACAD_REACTORS
330
47
102
}
330
47
100
AcDbScale
 70
     0
300
1:20
140
1.0
141
20.0
290
     0
  0
SCALE
  5
50
102
{ACAD_REACTORS
330
47
102
}
330
47
100
AcDbScale
 70
     0
300
1:30
140
1.0
141
30.0
290
     0
  0
SCALE
  5
51
102
{ACAD_REACTORS
330
47
102
}
330
47
100
AcDbScale
 70
     0
300
1:40
140
1.0
141
40.0
290
     0
  0
SCALE
  5
52
102
{ACAD_REACTORS
330
47
102
}
330
47
100
AcDbScale
 70
     0
300
1:50
140
1.0
141
50.0
290
     0
  0
SCALE
  5
53
102
{ACAD_REACTORS
330
47
102
}
330
47
100
AcDbScale
 70
     0
300
1:100
140
1.0
141
100.0
290
     0
  0
SCALE
  5
54
102
{ACAD_REACTORS
330
47
102
}
330
47
100
AcDbScale
 70
     0
300
2:1
140
2.0
141
1.0
290
     0
  0
SCALE
  5
55
102
{ACAD_REACTORS
330
47
102
}
330
47
100
AcDbScale
 70
     0
300
4:1
140
4.0
141
1.0
290
     0
  0
SCALE
  5
56
102
{ACAD_REACTORS
330
47
102
}
330
47
100
AcDbScale
 70
     0
300
8:1
140
8.0
141
1.0
290
     0
  0
SCALE
  5
57
102
{ACAD_REACTORS
330
47
102
}
330
47
100
AcDbScale
 70
     0
300
10:1
140
10.0
141
1.0
290
     0
  0
SCALE
  5
58
102
{ACAD_REACTORS
330
47
102
}
330
47
100
AcDbScale
 70
     0
300
100:1
140
100.0
141
1.0
290
     0
  0
SCALE
  5
59
102
{ACAD_REACTORS
330
47
102
}
330
47
100
AcDbScale
 70
     0
300
1/128" = 1'-0"
140
0.0078125
141
12.0
290
     0
  0
SCALE
  5
5A
102
{ACAD_REACTORS
330
47
102
}
330
47
100
AcDbScale
 70
     0
300
1/64" = 1'-0"
140
0.015625
141
12.0
290
     0
  0
SCALE
  5
5B
102
{ACAD_REACTORS
330
47
102
}
330
47
100
AcDbScale
 70
     0
300
1/32" = 1'-0"
140
0.03125
141
12.0
290
     0
  0
SCALE
  5
5C
102
{ACAD_REACTORS
330
47
102
}
330
47
100
AcDbScale
 70
     0
300
1/16" = 1'-0"
140
0.0625
141
12.0
290
     0
  0
SCALE
  5
5D
102
{ACAD_REACTORS
330
47
102
}
330
47
100
AcDbScale
 70
     0
300
3/32" = 1'-0"
140
0.09375
141
12.0
290
     0
  0
SCALE
  5
5E
102
{ACAD_REACTORS
330
47
102
}
330
47
100
AcDbScale
 70
     0
300
1/8" = 1'-0"
140
0.125
141
12.0
290
     0
  0
SCALE
  5
5F
102
{ACAD_REACTORS
330
47
102
}
330
47
100
AcDbScale
 70
     0
300
3/16" = 1'-0"
140
0.1875
141
12.0
290
     0
  0
SCALE
  5
60
102
{ACAD_REACTORS
330
47
102
}
330
47
100
AcDbScale
 70
     0
300
1/4" = 1'-0"
140
0.25
141
12.0
290
     0
  0
SCALE
  5
61
102
{ACAD_REACTORS
330
47
102
}
330
47
100
AcDbScale
 70
     0
300
3/8" = 1'-0"
140
0.375
141
12.0
290
     0
  0
SCALE
  5
62
102
{ACAD_REACTORS
330
47
102
}
330
47
100
AcDbScale
 70
     0
300
1/2" = 1'-0"
140
0.5
141
12.0
290
     0
  0
SCALE
  5
63
102
{ACAD_REACTORS
330
47
102
}
330
47
100
AcDbScale
 70
     0
300
3/4" = 1'-0"
140
0.75
141
12.0
290
     0
  0
SCALE
  5
64
102
{ACAD_REACTORS
330
47
102
}
330
47
100
AcDbScale
 70
     0
300
1" = 1'-0"
140
1.0
141
12.0
290
     0
  0
SCALE
  5
65
102
{ACAD_REACTORS
330
47
102
}
330
47
100
AcDbScale
 70
     0
300
1-1/2" = 1'-0"
140
1.5
141
12.0
290
     0
  0
SCALE
  5
66
102
{ACAD_REACTORS
330
47
102
}
330
47
100
AcDbScale
 70
     0
300
3" = 1'-0"
140
3.0
141
12.0
290
     0
  0
SCALE
  5
67
102
{ACAD_REACTORS
330
47
102
}
330
47
100
AcDbScale
 70
     0
300
6" = 1'-0"
140
6.0
141
12.0
290
     0
  0
SCALE
  5
68
102
{ACAD_REACTORS
330
47
102
}
330
47
100
AcDbScale
 70
     0
300
1'-0" = 1'-0"
140
12.0
141
12.0
290
     0
  0
ENDSEC
  0
EOF
